Untitled 2

(/) Slide Up  (\) Slide Down  (h) Hammer On  (p) Pull Off  (b) Bend (r) Release (v) Vibrato




1st Riff

E|----------------------------------------------
B|----------------------------------------------
G|-------9-8-------9-8-------9-8-------9-9p8----
D|------------------------------------------9---
A|----------------------------------------------
E|--7-7-------4-4-------2-2-------0-0-----------


2nd Riff

E|-------------------------------------------------------------------------
B|-------------------------------------------------------------------------
G|------9-----8---8------6-----4---4------3-----3---3------1-----1---1-----
D|-------------------------------------------------------------------------
A|-------------------------------------------------------------------------
E|--7-7---7-7---7----4-4---4-4---4----2-2---2-2---2----0-0---0-0---0-------


Verse (Chords)

E|-------------------------
B|-------------------------
G|-------------------------
D|---9----6----4-----------
A|---9----6----4----2------
E|---7----4----2----0------


Chorus (Chords)

E|-------------------------
B|-------------------------
G|---9---------13----11----
D|---9----9----13----11----
A|---7----9----11----9-----
E|--------7----------------


Build Up To Bridge (Chords)

E|---------------------------
B|---------------------------
G|---------------------------
D|---11---13---14------------
A|---11---13---14------------
E|---9----11---12------------

Bridge (Chords)

E|---------------------------
B|---------------------------
G|------------11-------------
D|---14---9---11---11---13---
A|---14---9---9----11---13---
E|---12---7--------9----11---



http://www.guitartabcreator.com
Guitar Tab Creator is intended to store guitar tab created through the tool. It currently does not support in-line text editing. Any text you place in here will be lost. If you need to comment on your tab, please use the "Tab Notes" section located below.