untitled

(/) Slide Up  (\) Slide Down  (h) Hammer On  (p) Pull Off  (b) Bend (r) Release (v) Vibrato        (x) Dont play string

Capo. 7

Intro/Verse

G Em7 Cadd9 G D/F

E|--3----3----3----3----3
B|--3----3----3----3----3
G|--0----0----0----0----2
D|--0----2----2----0----0
A|--2----2----3----2----0
E|--3----0----x----3----2


Link to Chorus

C ? ? ?

E|--0----0----0----0
B|--1----1----1----1
G|--0----0----0----0
D|--2----2----0----0
A|--3----0----0----0
E|--x----x----3----2


Chorus

G D/F Em7

E|--3----3----3
B|--3----3----3 Play that through then on the last time finish with a Cadd9
G|--0----2----0
D|--0----0----2
A|--2----0----2
E|--3----2----0


Bridge

? ? Em G

E|--0----0----0------3
B|--1----1----0------3
G|--0----0----0------0
D|--2----0----2------0
A|--0----2----2------2
E|--x----x----0----2h3


Order:

Intro
Verse
Chorus
Verse
Chorus
Bridge
Chorus

Written by Connor Hicks
Copywright Connor Hicks

http://www.guitartabcreator.com
Guitar Tab Creator is intended to store guitar tab created through the tool. It currently does not support in-line text editing. Any text you place in here will be lost. If you need to comment on your tab, please use the "Tab Notes" section located below.