April Day

(/) Slide Up  (\) Slide Down  (h) Hammer On  (p) Pull Off  (b) Bend (r) Release (v) Vibrato


E|-----------0-----------------0--------
B|-----3--------3--------3--------3-----
G|--------4--------4--------4--------4--
D|--5-----------------5-----------------
A|--------------------------------------
E|--------------------------------------



E|-----------0-----------------0--------
B|-----0--------0--------0--------0-----
G|--------6--------6--------6--------6--
D|--4-----------------4-----------------
A|--------------------------------------
E|--------------------------------------



E|-----------0-----------------0--------
B|-----5--------5--------5--------5-----
G|--------7--------7--------7--------7--
D|--7-----------------7-----------------
A|--------------------------------------
E|--------------------------------------



E|-----------9-----------------9--------
B|-----8--------8--------8--------8-----
G|--------9--------9--------9--------9--
D|--7-----------------7-----------------
A|--------------------------------------
E|--------------------------------------



E|-------------12---------------------12----------
B|-----10----------10---------10----------10------
G|---------11----------11---------11----------11--
D|--0----------------------0----------------------
A|------------------------------------------------
E|------------------------------------------------



E|-----------5-----------------5--------
B|-----3--------3--------3--------3-----
G|--------4--------4--------4--------4--
D|--0-----------------0-----------------
A|--------------------------------------
E|--------------------------------------



E|--
B|--
G|--
D|--
A|--
E|--
http://www.guitartabcreator.com
Guitar Tab Creator is intended to store guitar tab created through the tool. It currently does not support in-line text editing. Any text you place in here will be lost. If you need to comment on your tab, please use the "Tab Notes" section located below.