Money

(/) Slide Up  (\) Slide Down  (h) Hammer On  (p) Pull Off  (b) Bend (r) Release (v) Vibrato


E|------------------------------------------------------------------------------------------------------
B|------------------------------------------------------------------------------------------------------
G|-----4----------------------4-------------------------------------------------------------------------
D|--------4----------------------4--------------------------------------3--------------0h4--3--2--------
A|--2--------2--------2--5b2--------2--------2--5--2--5--------2--0--5-----3--------4-------------2-----
E|--------------2--5-------------------2--5--------------2--5-----------------2--5----------------------



E|-----------------------------------
B|-----------------------------------
G|-----------------------------------
D|-----------------------------5--2--
A|--------0--0--2--0--0--2--0--------
E|--0--3-----------------------------
http://www.guitartabcreator.com
Guitar Tab Creator is intended to store guitar tab created through the tool. It currently does not support in-line text editing. Any text you place in here will be lost. If you need to comment on your tab, please use the "Tab Notes" section located below.