Thrash stuff

(/) Slide Up  (\) Slide Down  (h) Hammer On  (p) Pull Off  (b) Bend (r) Release (v) Vibrato

Stave 1:

E|----------------------------------------------------
B|----------------------------------------------------
G|----------------------------------------------------
D|----------------------------------------------------
A|--2--1---------2--1---------2--1---------2--1-------
E|--------3------------2------------1------------0----

Stave 2:

E|--------------------------------------------------------------
B|--------------------------------------------------------------
G|--------------------------------------------------4-----------
D|--2-----------------------------------------------4--4--3--2--
A|--2-----------------------------------------------2--4--3--2--
E|--0--0--0--0--0--0--0--0--0--0--0--0--0--0--0--0-----2--1--0--

Stave 3:

E|--------------------------------
B|--------------------------------
G|--4--5--4-----------------------
D|--4--5--4--4--2-----------------
A|--2--3--2--4--2-----------------
E|-----------2--0-----------------

Stave 4:

E|----------------------------
B|----------------------------
G|---------10-----------------
D|--9--10------9--8--8--8--8--
A|----------------------------
E|----------------------------

Stave 5:

E|--------------------------------------------------------------------------
B|--------------------------------------------------------------------------
G|--------------------------------------------------------------------------
D|--------------------------------------------------------------------------
A|--------3-----------------------3-----------------------3-----------------
E|--2--3-----2--1--1--1--1--2--3-----2--1--1--1--1--2--3-----2--1--1--1--1--

Stave 6:

E|--------------------------------------------------------------------------------------------------
B|--------------------------------------------------------------------------------------------------
G|--------------------------------------------------------------------------------------------------
D|--------------------------------------------------------------------------------------------------
A|--------2-----------------------2-----------------------2-----------------------2-----------------
E|--1--2-----1--0--0--0--0--1--2-----1--0--0--0--0--1--2-----1--0--0--0--0--1--2-----1--0--0--0--0--

http://www.guitartabcreator.com
Guitar Tab Creator is intended to store guitar tab created through the tool. It currently does not support in-line text editing. Any text you place in here will be lost. If you need to comment on your tab, please use the "Tab Notes" section located below.