sabbathy chords EDITED

(/) Slide Up  (\) Slide Down  (h) Hammer On  (p) Pull Off  (b) Bend (r) Release (v) Vibrato
E|-------------------------------------
B|-------------------------------------
G|-------------------------------------
D|--------------8--10------14--13--12--
A|--------------6--8-------12--11--10--
E|--8--8--8--8-------------------------



E|-----------------------
B|-----------------------
G|-----------------------
D|-----------------------
A|-----------------------
E|-----------------------



E|------------------------------
B|------------------------------
G|------------------------------
D|--------------8--10--8----10--
A|--------------6--8---6----8---
E|--8--8--8--8------------------



E|----------------------------
B|----------------------------
G|----------------------------
D|--------------8--10--8--12--
A|--------------6--8---6--10--
E|--8--8--8--8----------------



E|--
B|--
G|--
D|--
A|--
E|--
http://www.guitartabcreator.com
Guitar Tab Creator is intended to store guitar tab created through the tool. It currently does not support in-line text editing. Any text you place in here will be lost. If you need to comment on your tab, please use the "Tab Notes" section located below.