My Kinda Party Verse/Chorus

(/) Slide Up  (\) Slide Down  (h) Hammer On  (p) Pull Off  (b) Bend (r) Release (v) Vibrato


E|-----------------
B|-----------------
G|--5--8--3--------
D|--5--8--3--6--8--
A|--3--6--1--6--8--
E|-----------4--6--



E|--------------
B|--------------
G|--------------
D|--6--8--6--8--
A|--6--8--6--8--
E|--4--6--4--6--
http://www.guitartabcreator.com
Guitar Tab Creator is intended to store guitar tab created through the tool. It currently does not support in-line text editing. Any text you place in here will be lost. If you need to comment on your tab, please use the "Tab Notes" section located below.