Hitchin' A Ride

(/) Slide Up  (\) Slide Down  (h) Hammer On  (p) Pull Off  (b) Bend (r) Release (v) Vibrato


E|--------------------------
B|--------------------------
G|--------------------------
D|--9--9--7--7--6--6--5--5--
A|--9--9--7--7--6--6--5--5--
E|--7--7--5--5--4--4--3--3--



E|--------------------------------------------------------------------------
B|--------------------------------------------------------------------------
G|--------------------------------------------------------------------------
D|--2--2--2--2--4--4--4--4--9--9--7--7--6--6--5--5--2--2--2--2--4--4--4--4--
A|--2--2--2--2--4--4--4--4--9--9--7--7--6--6--5--5--2--2--2--2--4--4--4--4--
E|--0--0--0--0--2--2--2--2--7--7--5--5--4--4--3--3--0--0--0--0--2--2--2--2--
http://www.guitartabcreator.com
Guitar Tab Creator is intended to store guitar tab created through the tool. It currently does not support in-line text editing. Any text you place in here will be lost. If you need to comment on your tab, please use the "Tab Notes" section located below.