Folky Indie riff

(/) Slide Up  (\) Slide Down  (h) Hammer On  (p) Pull Off  (b) Bend (r) Release (v) Vibrato


E|------------------------------------------------
B|--------------------------2----2--2----2--2--2--
G|--1----1--1----1--1--1----1----1--1----1--1--1--
D|--2----2--2----2--2--2----2----2--2----2--2--2--
A|--2----2--2----2--2--2----2----2--2----2--2--2--
E|------------------------------------------------



E|---------------------------------------------------------
B|--1----1--1----1--1--1----2----2--2----2--2--2-----------
G|--2----2--2----2--2--2----2----2--2----2--2--2-----------
D|--2----2--2----2--2--2----2----2--2----2--2--2-----------
A|---------------------------------------------------------
E|---------------------------------------------------12\3--
http://www.guitartabcreator.com
Guitar Tab Creator is intended to store guitar tab created through the tool. It currently does not support in-line text editing. Any text you place in here will be lost. If you need to comment on your tab, please use the "Tab Notes" section located below.