children of boddom - kissing the shadows

(/) Slide Up  (\) Slide Down  (h) Hammer On  (p) Pull Off  (b) Bend (r) Release (v) Vibrato

E|----------------------------------------------------------15--13--12--------------
B|------12--13--15--13--12--13--12--------------12--13--15--------------15--13--12--
G|--14------------------------------14--12--14--------------------------------------
D|----------------------------------------------------------------------------------
A|----------------------------------------------------------------------------------
E|----------------------------------------------------------------------------------



E|----------12------15--13--12----------------------13--12----------
B|--13--15------13--------------15--12--13--15--13----------15--13--
G|------------------------------------------------------------------
D|------------------------------------------------------------------
A|------------------------------------------------------------------
E|------------------------------------------------------------------



E|------------------12--13--12------12------------------------------
B|------12--13--15--------------15------15--13--12--13--12----------
G|--14------------------------------------------------------14--12--
D|------------------------------------------------------------------
A|------------------------------------------------------------------
E|------------------------------------------------------------------
http://www.guitartabcreator.com
Guitar Tab Creator is intended to store guitar tab created through the tool. It currently does not support in-line text editing. Any text you place in here will be lost. If you need to comment on your tab, please use the "Tab Notes" section located below.