DubStreet *Waiting*

(/) Slide Up  (\) Slide Down  (h) Hammer On  (p) Pull Off  (b) Bend (r) Release (v) Vibrato


E|--9--7--5--9--
B|--7--5--5--9--
G|--------------
D|--------------
A|--------------
E|--------------



E|-7\9-7---7-7-7\9-7---7---------------------------
B|-------9-----------9---9-9-7/5-5-7---7-7\9-7-----
G|-----------------------------------6-6-------9---
D|-----------------------------------------------9-
A|-------------------------------------------------
E|-------------------------------------------------



E|------------------------------------------------------9-12----9---------------------------------
B|----------------------12----------------------------9------12------------12----12-14-12----12---
G|--------------9-11\13----13-11/9h11-----------------------------11-11\13----13----------13------
D|-------7h9\11-----------------------11---------9h11---------------------------------------------
A|-7h8h9---------------------------------9h10h11--------------------------------------------------
E|------------------------------------------------------------------------------------------------



E|---------------
B|---------------
G|-13-11/9-11-11-
D|------------9--
A|---------------
E|---------------
http://www.guitartabcreator.com
Guitar Tab Creator is intended to store guitar tab created through the tool. It currently does not support in-line text editing. Any text you place in here will be lost. If you need to comment on your tab, please use the "Tab Notes" section located below.