DubStreet *Time for Change*

(/) Slide Up  (\) Slide Down  (h) Hammer On  (p) Pull Off  (b) Bend (r) Release (v) Vibrato


E|-----4--2p0-------------------
B|--2----------4--4\5--5--4--0--
G|------------------------------
D|------------------------------
A|------------------------------
E|------------------------------



E|-----4--2p0----------4--5--5\7--5--4--------
B|--2----------4--4\5-------------------5-----
G|-----------------------------------------6--
D|--------------------------------------------
A|--------------------------------------------
E|--------------------------------------------



E|-----------------------------4-----4-----4-----4-----7-----7-----7-----7--5--5--5--5--4v--
B|-----5-----5-----5-----5--5-----5-----5-----5-----5-----5-----5-----5---------------------
G|--6-----6-----6-----6---------------------------------------------------------------------
D|------------------------------------------------------------------------------------------
A|------------------------------------------------------------------------------------------
E|------------------------------------------------------------------------------------------
http://www.guitartabcreator.com
Guitar Tab Creator is intended to store guitar tab created through the tool. It currently does not support in-line text editing. Any text you place in here will be lost. If you need to comment on your tab, please use the "Tab Notes" section located below.