Dont Hold Your Breath

(/) Slide Up  (\) Slide Down  (h) Hammer On  (p) Pull Off  (b) Bend (r) Release (v) Vibrator


E|--Main-Part----Palm Mute-:)---------------------------------
B|------------------------------------------------------------
G|------------------------------------------------------------
D|------------------------------------------------------------
A|------7-6-6----7-6-6-8-10-6-5-3----6-5---6-5---6-5---6-8-10-
E|--3-6------3-6------------------3-6---3-6---3-6---3-6-------

E|-Chorus---------------------------------------------------------------------------------------------
B|----------------------------------------------------------------------------------------------------
G|----------------------------------------------------------------------------------------------------
D|----------------------------------------------------------------------------------------------------
A|------6-5--------------------------6--5--------6--5-------6--5-------------------6--5--6--8--10-6-5-
E|-3--6-----3--6--8-10---------3--6-------3--6---------3--6------3--6--8--10--3--6-------------------3
Play this part singularly (Not this part though)

E|-Bridge----------------|-------------------------------------------------------------------
B|-----------------------|-------------------------------------------------------------------
G|-----------------------|-------------------------------------------------------------------
D|--(Christy Guitar Fill)|-------------------------------------------------------------------
A|-----------------------|----------6--5------------------------6-5--6--8--8/10-8/10-8/10-10-
E|-----------------------|--3--6--3------3--6--3---8--10---3--6------------------------------

Repeat chorus

end.



Guitar Tab Creator is intended to store guitar tab created through the tool. It currently does not support in-line text editing. Any text you place in here will be lost. If you need to comment on your tab, please use the "Tab Notes" section located below.