o taste and see (a)

(/) Slide Up  (\) Slide Down  (h) Hammer On  (p) Pull Off  (b) Bend (r) Release (v) Vibrato


E|------------------------------------------------------------------------------------------
B|--10--10--10--10--10--10--10--10--12--10------15--15--15--15--15--15--15--15--17--15------
G|------------------------------------------13------------------------------------------18--
D|------------------------------------------------------------------------------------------
A|------------------------------------------------------------------------------------------
E|------------------------------------------------------------------------------------------



E|--------------------------------------------------
B|--15--15--15--15--15--15--15--15--17--15----------
G|--------------------------------------------------
D|------------------------------------------18--16--
A|--------------------------------------------------
E|--------------------------------------------------
http://www.guitartabcreator.com
Guitar Tab Creator is intended to store guitar tab created through the tool. It currently does not support in-line text editing. Any text you place in here will be lost. If you need to comment on your tab, please use the "Tab Notes" section located below.