I love you lord (D)

(/) Slide Up  (\) Slide Down  (h) Hammer On  (p) Pull Off  (b) Bend (r) Release (v) Vibrato


E|------------------------------
B|------10--17------10--12--10--
G|--12----------12--------------
D|------------------------------
A|------------------------------
E|------------------------------



E|--17--15--12--15--17----------
B|----------------------12--10--
G|------------------------------
D|------------------------------
A|------------------------------
E|------------------------------
http://www.guitartabcreator.com
Guitar Tab Creator is intended to store guitar tab created through the tool. It currently does not support in-line text editing. Any text you place in here will be lost. If you need to comment on your tab, please use the "Tab Notes" section located below.