All For Love C

(/) Slide Up  (\) Slide Down  (h) Hammer On  (p) Pull Off  (b) Bend (r) Release (v) Vibrato


E|--------------------------------------------------------------------------------------
B|--------------------------------------------------------------------------------------
G|--------------------------------------------------------------------------------------
D|-----------------------------------4--4--4-----------------------------------------5--
A|-----------5--5--5--2--2--------------------5--5-----------5--5--5--4--5-----------x--
E|--0--0--0-----------------3--3--3-----------------3--3--3-----------------0--0--0--3--



E|------------------------------------------
B|------------------------------------------
G|------------------------------------------
D|------7--7--7--7------7--7--7--10--7------
A|--10--------------10------------------10--
E|------------------------------------------
http://www.guitartabcreator.com
Guitar Tab Creator is intended to store guitar tab created through the tool. It currently does not support in-line text editing. Any text you place in here will be lost. If you need to comment on your tab, please use the "Tab Notes" section located below.