robben

(/) Slide Up  (\) Slide Down  (h) Hammer On  (p) Pull Off  (b) Bend (r) Release (v) Vibrato


E|------18b19b18--16----------------------|--|------9--9--12--11--9---|--|---------9---------12--9--
B|--14----------------17------------------|--|--11--------11--11--11--|--|--9--11-----9--11---------
G|------------------------18------15--18--|--|------------------------|--|--------------------------
D|----------------------------18----------|--|------------------------|--|--------------------------
A|----------------------------------------|--|------------------------|--|--------------------------
E|----------------------------------------|--|------------------------|--|--------------------------



E|----------------------------------
B|------------------------------12--
G|------------------------------10--
D|----------11----------14--11--11--
A|--11--13------11--13----------11--
E|----------------------------------
http://www.guitartabcreator.com
Guitar Tab Creator is intended to store guitar tab created through the tool. It currently does not support in-line text editing. Any text you place in here will be lost. If you need to comment on your tab, please use the "Tab Notes" section located below.