once a wise man

(/) Slide Up  (\) Slide Down  (h) Hammer On  (p) Pull Off  (b) Bend (r) Release (v) Vibrato
E|-----------------------------------2--------5--4--
B|--------2--------3--------5-----------3-----------
G|--------4--------4--------4--------------4--------
D|--2--2-----2--2-----2--2-----2--2-----------2--2--
A|--------------------------------------------------
E|--------------------------------------------------



E|--------7--------5-----------------
B|--------5--------5--------7--7--5--
G|--------------------------7--7--7--
D|-----------------------------------
A|--7--7-----7--7-----7--7-----------
E|-----------------------------------



E|-----5--------4--------2-----------------------
B|--------3--------3--------3-----5--------3-----
G|-----------------------------------4--------4--
D|--2--------2--------2--------2--------2--------
A|-----------------------------------------------
E|-----------------------------------------------
http://www.guitartabcreator.com
Guitar Tab Creator is intended to store guitar tab created through the tool. It currently does not support in-line text editing. Any text you place in here will be lost. If you need to comment on your tab, please use the "Tab Notes" section located below.