The Night Watch

(/) Slide Up  (\) Slide Down  (h) Hammer On  (p) Pull Off  (b) Bend (r) Release (v) Vibrato


E|--------10-----9--------9-----7----------14------12---------12------10--
B|-----7------7--------7-----7---------12------12---------10------10------
G|------------------------------------------------------------------------
D|--9---------------9-----------------------------------------------------
A|---------------------------------10------------------9------------------
E|------------------------------------------------------------------------



E|--14----------12------------------------------14----------12----------14--
B|------12----------12------15------14--------------12----------12----------
G|----------12----------12------14------14--------------12----------12------
D|------------------------------------------14------------------------------
A|--------------------------------------------------------------------------
E|--------------------------------------------------------------------------
http://www.guitartabcreator.com
Guitar Tab Creator is intended to store guitar tab created through the tool. It currently does not support in-line text editing. Any text you place in here will be lost. If you need to comment on your tab, please use the "Tab Notes" section located below.