india

(/) Slide Up  (\) Slide Down  (h) Hammer On  (p) Pull Off  (b) Bend (r) Release (v) Vibrato


E|--------------------------------
B|-----------9--------------------
G|--------8--9--------------------
D|--7--9-----9--6--7--4-----1-----
A|-----------------------------2--
E|-----------------------2--------



E|-----------------------------------
B|--3/5--7--7--9--10--9--7--5--3--5--
G|-----------------------------------
D|-----------------------------------
A|-----------------------------------
E|-----------------------------------



E|------------------------------------------
B|------------------------------------------
G|--6--7--6--9--4--6--2--4--1--2--1/4--2/4--
D|------------------------------------------
A|------------------------------------------
E|------------------------------------------



E|-----------------0--
B|--5--------------5--
G|--------------------
D|--------------------
A|-----4--5--6--7-----
E|--------------------
http://www.guitartabcreator.com
Guitar Tab Creator is intended to store guitar tab created through the tool. It currently does not support in-line text editing. Any text you place in here will be lost. If you need to comment on your tab, please use the "Tab Notes" section located below.