1234 tab

(/) Slide Up  (\) Slide Down  (h) Hammer On  (p) Pull Off  (b) Bend (r) Release (v) Vibrato

E|---2---4---5---5---2---0---
B|---2---3---7---5---3---3---
G|---2---4---5---5---2---2---
D|---1---0---0---4---0---0---
A|---------------5-----------
E|---------------------------



E|--1--0--0--3--0--
B|--1--1--1--1--1--
G|--2--2--0--0--0--
D|--3--2--2--------
A|--3--0--3--------
E|--1--0--0--------
http://www.guitartabcreator.com
Guitar Tab Creator is intended to store guitar tab created through the tool. It currently does not support in-line text editing. Any text you place in here will be lost. If you need to comment on your tab, please use the "Tab Notes" section located below.