Devendra Banhart - Cosmos And Demos

(/) Slide Up  (\) Slide Down  (h) Hammer On  (p) Pull Off  (b) Bend (r) Release (v) Vibrato


E|-----------------------------------------------6--------
B|--------5-----------5-----------5--------5--------5-----
G|-----6-----6-----6-----6-----6-----6--------6--------6--
D|--------------------------------------------------------
A|--4-----------4-----------4-----------4-----------------
E|--------------------------------------------------------



E|-----------------------------------------------6--------
B|--------5-----------5-----------5--------5--------5-----
G|-----6-----6-----6-----6-----6-----6--------6--------6--
D|--------------------------------------------------------
A|--4-----------4-----------4-----------4-----------------
E|--------------------------------------------------------



E|-----------------------6-----------------------------6--------
B|--------5--------5--------5-----------5--------5--------5-----
G|-----6-----6--------6--------6-----6-----6--------6--------6--
D|--------------------------------------------------------------
A|--4-----------4-----------------4-----------4-----------------
E|--------------------------------------------------------------



E|--4-----------4--------3/4-----------4--------3/4-----------4--------3/4-----------4--------
B|--------2-----------2----------2-----------2----------2-----------2----------2-----------2--
G|-----3-----------3----------3-----------3----------3-----------3----------3-----------3-----
D|--------------------------------------------------------------------------------------------
A|--4--------4-----------4----------4-----------4----------4-----------4----------4-----------
E|--------------------------------------------------------------------------------------------



E|-------------------------------------------------------
B|--------5-----7-----5----------------------4-----------
G|-----6-----6-----6-----6-----4--6--3/4--6-----6--4-----
D|-------------------------------------------------------
A|--4-----------4-----4-----4----------------------------
E|-------------------------------------------------------



E|----------------------------------------------------
B|--------5-----7-----5----------------------4--------
G|-----6-----6-----6-----6-----4--6--3/4--6-----6--4--
D|----------------------------------------------------
A|--4-----------4-----4-----4-------------------------
E|----------------------------------------------------



E|-------------------------------------------------------------------------------------
B|--------5-----------5-----------5-----5--------5--------5--------5-----------5-9--9--
G|-----6-----6-----6-----6-----6-----6--6--6--------6--------6--------6-----6--6/9--9--
D|--------------------------------4----------------------------------------------------
A|--4-----------4-----------4-----4-----4-----4--------4--------4--------4-------------
E|-------------------------------------------------------------------------------------



E|--------4-----------4-----------4--------
B|-----5-----------5-----------5-----------
G|-----------------------------------------
D|-----------4-----------4-----------4-----
A|--4-----------4-----------4-----------4--
E|-----------------------------------------



E|--------4-----------4-----------4-----------4-----------4-----------4-----------4--------
B|-----5-----5-----5-----5-----5-----5-----5-----5-----5-----5-----5-----5-----5-----5-----
G|-----------------------------------------------------------------------------------------
D|-----------------------------------------------------------------------------------------
A|--4-----------4-----------4-----------4-----------4-----------4-----------4-----------4--
E|-----------------------------------------------------------------------------------------



E|--------4-----3h4-----3h4-----------4-----3h4-----3h4-----
B|-----5-----5-------5-------5-----5-----5-------5-------5--
G|----------------------------------------------------------
D|----------------------------------------------------------
A|--3-----------3-------3-------3-----------3-------3-------
E|----------------------------------------------------------
http://www.guitartabcreator.com
Guitar Tab Creator is intended to store guitar tab created through the tool. It currently does not support in-line text editing. Any text you place in here will be lost. If you need to comment on your tab, please use the "Tab Notes" section located below.