Runaway

(/) Slide Up  (\) Slide Down  (h) Hammer On  (p) Pull Off  (b) Bend (r) Release (v) Vibrato
E|--------------------------------------------
B|--------------------------------------------
G|--------------------------------------------
D|--------8----------8------------------------
A|--6--6-------6--6-------------6----------6--
E|------------------------4--4-------4--4-----



E|-----------------------------------------
B|-----------------------------------------
G|-----------------------------------------
D|-----------------------------------------
A|-------10--8-------8--6------------------
E|--8-----------6----------4----4--4----6--



E|-----------------------------------------------------------------------------------------
B|-----------------------------------------------------------------------------------------
G|-----------------------------------------------------------------------------------------
D|-------8----------8------------------8----------8----------------------------------------
A|--6-------6--5-------5----------6-------6--5-------5---------------10--8-----8--6--------
E|------------------------4/11--------------------------4/11----8-----------6--------4-----



E|-------------------------------------------------------------------------------------------
B|-------------------------------------------------------------------------------------------
G|-------------------------------------------------------------------------------------------
D|--------------------8---------------------------------8------------------------------------
A|--------10----6--6-------------6----------10----6--6-------------6-------------------------
E|--8--8-------------------4--4-------8--8-------------------4--4----------------------------
http://www.guitartabcreator.com
Guitar Tab Creator is intended to store guitar tab created through the tool. It currently does not support in-line text editing. Any text you place in here will be lost. If you need to comment on your tab, please use the "Tab Notes" section located below.