One Step Over Me

(/) Slide Up  (\) Slide Down  (h) Hammer On  (p) Pull Off  (b) Bend (r) Release (v) Vibrato

Intro Guitar 2

E|--------------------------------------------------
B|--------5--4--------------------5--4--------------
G|-----6--------4--2-----------6--------4--2-----2--
D|--4-----------------4--2--4-----------------4-----
A|--------------------------------------------------
E|--------------------------------------------------

Guitar 1 Verse

E|--4--------2----------4------------2--------------
B|--5--------4----------5------------4--------------
G|--4--------2----------4------------2--------------
D|--6--------4----------6------------4--------------
A|--4--------2----------4------------2--------------
E|--4--------2----------4------------2--------------

Guitar 2 Verse

E|-----------------------------------------------------------------------------
B|-----------------------------------------------------------------------------
G|-----------------------------------------------------------------------------
D|-----------6--6--4-----------4--4--2-----------6--6--4-----------6--4--2-----
A|--4--4--4-----------2--2--2-----------4--4--4-----------2--2--2-----------2--
E|-----------------------------------------------------------------------------

Bass Verse

E|--------------------------------------------------
B|--------------------------------------------------
G|--------------------------------------------------
D|-----2--4--6-----1--2--4-----2--4--6-----1--2--4--
A|--4-----------2-----------4-----------2-----------
E|--------------------------------------------------

Bass Pre-Chorus (5--5--7) = 2nd time through only

E|---------------------------------------------------------
B|---------------------------------------------------------
G|---------------------------------------------------------
D|---------------------------------------------------------x2
A|-------------0--0--0-------------------------------------
E|--2--2--2---------------0--0--0----2--2--2----(5--5--7)--

Bass Chorus

E|--------------------------------------
B|--------------------------------------
G|--------------------------------------
D|-----6--2-----4--1--------------------x4
A|--4--------2--------0--------0--2-----
E|-----------------------0--2-----------
http://www.guitartabcreator.com
Guitar Tab Creator is intended to store guitar tab created through the tool. It currently does not support in-line text editing. Any text you place in here will be lost. If you need to comment on your tab, please use the "Tab Notes" section located below.