No Words

(/) Slide Up  (\) Slide Down  (h) Hammer On  (p) Pull Off  (b) Bend (r) Release (v) Vibrato
E|---------------------------------------------------------------------
B|---------------------------------------------------------------------
G|---------------------------------------------------------------------
D|---------------------------------1----1----3--1--0----0--------------
A|--3----10\3--5--1----1-----1--3-----------------------------1--3--3--
E|------------------------3--------------------------------3-----------



E|------------------------------------------------------------------------------------
B|----------------8--8--------------------6--6------------------------11--11----------
G|----------8--8--------8--8--------7--7--------7--7----------12--12----------12--12--
D|--10--10--------------------8--8--------------------13--13--------------------------
A|------------------------------------------------------------------------------------
E|------------------------------------------------------------------------------------



E|----------------------------------
B|------------------10--10----------
G|----------12--12----------11--11--
D|--12--12--------------------------
A|----------------------------------
E|----------------------------------



E|-----------------------------------------------------------------------
B|-----------------------------------------------------------------------
G|-----------------------------------------------------------------------
D|-----------------------------------------------------------------------
A|--3----3---------6----6---------------------------------6--5--------3--
E|--------------6----------------6----6----3--6------6----------6--3-----



E|--8-----------11----------6------------6----------------
B|--8-----------11----------6------------6----------------
G|--8-----------12----------7------------7----------------
D|--10----------13----------8------------8----------------
A|--10----------13----------8------------8----------------
E|--8-----------11----------6------------6----------------
http://www.guitartabcreator.com
Guitar Tab Creator is intended to store guitar tab created through the tool. It currently does not support in-line text editing. Any text you place in here will be lost. If you need to comment on your tab, please use the "Tab Notes" section located below.