Never Forget

(/) Slide Up  (\) Slide Down  (h) Hammer On  (p) Pull Off  (b) Bend (r) Release (v) Vibrato


E|--------------------------------------------------------
B|--------------------------------------------------------
G|--------------------------------------------------------
D|-----0-----3----0--3h5p3-----------0-----3----0--3h5p3--
A|--1-----1-----------------------0-----0-----------------
E|--------------------------------------------------------



E|------------------------------------------------
B|------------------------------------------------
G|------------------------------------------------
D|-----0-----3----0-------------------------------
A|-------------------3--1-----0--0-------1h3p1----
E|--3-----3----------------1----------1-----------
http://www.guitartabcreator.com
Guitar Tab Creator is intended to store guitar tab created through the tool. It currently does not support in-line text editing. Any text you place in here will be lost. If you need to comment on your tab, please use the "Tab Notes" section located below.