On My Way

(/) Slide Up  (\) Slide Down  (h) Hammer On  (p) Pull Off  (b) Bend (r) Release (v) Vibrato


E|------------------------------------------------------------------
B|------------------------------------------------------------------
G|------------------------------------------------------------------
D|------------------------------------------------------------------
A|-------1--2----1--4----1--2------------1--2----1--4----1--2-------
E|--2----------------------------4--2----------------------------4--



E|-------------------------------------------------------------------
B|-------------------------------------------------------------------
G|-----------------------8--------------------------------8------11--
D|--------11--9--8----------11--9----------11--9--8----------11------
A|--9--9--------------9--------------9--9--------------9-------------
E|-------------------------------------------------------------------
http://www.guitartabcreator.com
Guitar Tab Creator is intended to store guitar tab created through the tool. It currently does not support in-line text editing. Any text you place in here will be lost. If you need to comment on your tab, please use the "Tab Notes" section located below.