Keep It Coming

(/) Slide Up  (\) Slide Down  (h) Hammer On  (p) Pull Off  (b) Bend (r) Release (v) Vibrato

Intro/Verse
Bass

E|-------------------------------------------------------------------------------------
B|-------------------------------------------------------------------------------------
G|-------------------------------------------------------------------------------------
D|-------------------3----------5--3----1---------------------3----------5--3----1-----
A|--3--3--6----3--3-------3--3-------------1/3--3--6----3--3-------3--3-------------1--
E|-------------------------------------------------------------------------------------

Guitar 1

E|--------------------------------------------
B|--------------------------------------------
G|--------------------------------------------
D|----------------1---------------------1--3--
A|---------1h2h3-----3-----------1h2h3--------
E|--1h2h3-----------------1h2h3---------------

Guitar 2

E|----------------------------------
B|----------------------------------
G|------5----------------10------8--
D|------5--(x3)----------10------8--
A|------3----------------8-------6--
E|----------------------------------



http://www.guitartabcreator.com
Guitar Tab Creator is intended to store guitar tab created through the tool. It currently does not support in-line text editing. Any text you place in here will be lost. If you need to comment on your tab, please use the "Tab Notes" section located below.