It Goes On

(/) Slide Up  (\) Slide Down  (h) Hammer On  (p) Pull Off  (b) Bend (r) Release (v) Vibrato

Guitar 1

E|------------------------------------------------------------------------
B|------------------------------------------------------------------------
G|------------------------------------------------------------------------
D|--8-----8-----8--8-----8-----8--8-------8-----8--8-----8-----8--8-------
A|-----6-----6--------6-----6----------9-----9--------9-----9-------------
E|------------------------------------------------------------------------



E|----------------------------------------------------------------
B|----------------------------------------------------------------
G|----------------------------------------------------------------
D|-----8-----8--8-----8-----8--8-------8-----8--8-----8-----8--8--
A|----------------------------------6-----6--------6-----6--------
E|--9-----9--------9-----9----------------------------------------


Guitar 2

E|----------------------------------------------------------------------
B|----------------------------------------------------------------------
G|------8----------------------8---/--11----------------------------11--
D|------8----------------------8---/--11----------------------------11--
A|------6----------------------6---/--9-----------------------------9---
E|----------------------------------------------------------------------



E|-----------------------------------------
B|-----------------------------------------
G|--------------------------------------8--
D|------11--------------------11--------8--
A|------11--------------------11--------6--
E|------9---------------------9------------

Bass

E|-----------------------------------------------------------------------------
B|-----------------------------------------------------------------------------
G|-----------------------------------------------------------------------------
D|---------------4--------------4----------------------------------------------
A|--6------4--6--------------------6--4--------------4-----6-------------4--6--
E|------------------------------------------------------6-------------6--------
http://www.guitartabcreator.com
Guitar Tab Creator is intended to store guitar tab created through the tool. It currently does not support in-line text editing. Any text you place in here will be lost. If you need to comment on your tab, please use the "Tab Notes" section located below.