On The Ground

(/) Slide Up  (\) Slide Down  (h) Hammer On  (p) Pull Off  (b) Bend (r) Release (v) Vibrato


E|------------------------------------------
B|------------------------------------------
G|-----------------------9--7--5h7p5--------
D|--5--5--7--9--10--7-----------------7--5--
A|------------------------------------------
E|------------------------------------------



E|-----------------------------------
B|-----------------------------------
G|--7--5--4--5--5-----7--5--4--7--9--
D|-----------------7-----------------
A|-----------------------------------
E|-----------------------------------



E|-----------------------------------------------------------------
B|-----8-----------------------------8-----------------------------
G|--9-----9--7--------------------9-----9--7-----------------------
D|--------------10--7--7--7/9--9--------------10--7--7--7/9--9-----
A|-----------------------------------------------------------------
E|-----------------------------------------------------------------



E|---------------------------------------------------------------------
B|-----8-----------10--10--8-----------8-----------10--10--8-----------
G|--9-----9--7--9-------------9--7--9-----9--7--9-------------9--7--5--
D|---------------------------------------------------------------------
A|---------------------------------------------------------------------
E|---------------------------------------------------------------------
http://www.guitartabcreator.com
Guitar Tab Creator is intended to store guitar tab created through the tool. It currently does not support in-line text editing. Any text you place in here will be lost. If you need to comment on your tab, please use the "Tab Notes" section located below.