The Breaking Point

(/) Slide Up  (\) Slide Down  (h) Hammer On  (p) Pull Off  (b) Bend (r) Release (v) Vibrato

Main Bass Riff

E|--------------------------------------------------------------------
B|--------------------------------------------------------------------
G|--------------------------------------------------------------------
D|-----------------------0--------------------------------0-----------
A|--------------1--3--3-----1--1-----------------1--3--3-----1--1-----
E|--3--3--3--3--------------------1--3--3--3--3--------------------1--

Chorus (Bass)

E|----------------------------------------------------------------------------------------------------
B|----------------------------------------------------------------------------------------------------
G|----------------------------------------------------------------------------------------------------
D|----------------------------------------------------------------------------------------------------
A|--1--1--1--1--4--1--3--1-----------------------0--1--1--1--1--4--1--3--1-----------------------0----
E|--------------------------1--1--1--4--1--1--4-----------------------------1--1--1--4--1--1--4-------



E|-----------------------------------------------------------------------------
B|-----------------------------------------------------------------------------
G|-----------------------------------------------------------------------------
D|-----------------------------------------------------------------------------
A|--1--1--1--1--4--1--3--1-----------------------0--1--1--1--1--4--1--3--1--3--
E|--------------------------1--1--1--4--1--1--4--------------------------------



E|--
B|--
G|--
D|--
A|--
E|--
http://www.guitartabcreator.com
Guitar Tab Creator is intended to store guitar tab created through the tool. It currently does not support in-line text editing. Any text you place in here will be lost. If you need to comment on your tab, please use the "Tab Notes" section located below.