Our God - B

(/) Slide Up  (\) Slide Down  (h) Hammer On  (p) Pull Off  (b) Bend (r) Release (v) Vibrato

E|---------------------------------------------------------------------------------------------
B|----------------------------------------------16--16--16--16--16--16--14--14--14--14--14-----
G|--16--16--16--16--16--13--13--13--13--13--13-------------------------------------------------
D|---------------------------------------------------------------------------------------------
A|---------------------------------------------------------------------------------------------
E|---------------------------------------------------------------------------------------------



E|---------------------------------------------------------------------------------------------
B|----------------------17--17--17--17--17--17--16--16--16--16--16--16--14--14--14--14--14-----
G|--16--16--16--16--16-------------------------------------------------------------------------
D|---------------------------------------------------------------------------------------------
A|---------------------------------------------------------------------------------------------
E|---------------------------------------------------------------------------------------------



E|----------------------------------------------------------------------14--14--14--14--
B|----------17--17--16--16----------17--17--16--16--16--14--14--14--14--14--14--14--11--
G|--16--16------------------16--16------------------------------------------------------
D|--------------------------------------------------------------------------------------
A|--------------------------------------------------------------------------------------
E|--------------------------------------------------------------------------------------
http://www.guitartabcreator.com
Guitar Tab Creator is intended to store guitar tab created through the tool. It currently does not support in-line text editing. Any text you place in here will be lost. If you need to comment on your tab, please use the "Tab Notes" section located below.