Our God - A

(/) Slide Up  (\) Slide Down  (h) Hammer On  (p) Pull Off  (b) Bend (r) Release (v) Vibrato


E|-------------------------------------------------------------------------------------------------
B|-------------------------------------------------------------------------------------------------
G|--14--14--14--14--14--14--14--14--------------------------18--18--18--18--18--18--18--16--16-----
D|----------------------------------16--16--16--16--16--16-----------------------------------------
A|-------------------------------------------------------------------------------------------------
E|-------------------------------------------------------------------------------------------------



E|-------------------------------------------------------------------------------------------------
B|-------------------------------------------------------------------------------------------------
G|--14--14--14--14--14--14--14--19--19--19--19--19--18--18--18--18--18--18--18--16--16--16--16-----
D|-------------------------------------------------------------------------------------------------
A|-------------------------------------------------------------------------------------------------
E|-------------------------------------------------------------------------------------------------



E|---------------------------------------------------------------------------------------------
B|----------------------------------------------------------------------------------17---------
G|--14--14--14--19--19--19--18--18--18--18--14--14--14--19--19--19--18--18--18--16------13-----
D|---------------------------------------------------------------------------------------------
A|---------------------------------------------------------------------------------------------
E|---------------------------------------------------------------------------------------------
http://www.guitartabcreator.com
Guitar Tab Creator is intended to store guitar tab created through the tool. It currently does not support in-line text editing. Any text you place in here will be lost. If you need to comment on your tab, please use the "Tab Notes" section located below.