From the Insidie Out

(/) Slide Up  (\) Slide Down  (h) Hammer On  (p) Pull Off  (b) Bend (r) Release (v) Vibrato


E|--------------------------------------------------------------
B|----------------------------------------------------------20--
G|--17--17--16----------17--16--21--17--16----------17--16------
D|--------------14--17----------------------14--17--------------
A|--------------------------------------------------------------
E|--------------------------------------------------------------



E|--------------------------------------
B|--------------------------------------
G|--------------------------------------
D|--10--12--15--14--10--12--15--17--14--
A|--------------------------------------
E|--------------------------------------



E|--------------------------------------------------
B|--13--13--13--13--13--13--17--17--17--15--15--15--
G|--14--14--14--12--12--12--17--17--17--16--16--16--
D|--------------------------------------------------
A|--------------------------------------------------
E|--------------------------------------------------
http://www.guitartabcreator.com
Guitar Tab Creator is intended to store guitar tab created through the tool. It currently does not support in-line text editing. Any text you place in here will be lost. If you need to comment on your tab, please use the "Tab Notes" section located below.