From the Inside Out - B

(/) Slide Up  (\) Slide Down  (h) Hammer On  (p) Pull Off  (b) Bend (r) Release (v) Vibrato


E|---------11---------11------------------
B|----------------------------14--11------
G|--9--11------8--11------11----------11--
D|----------------------------------------
A|----------------------------------------
E|----------------------------------------



E|---------------------------------------
B|---------------------------------------
G|--------------4--6--4h8--8--11h13--16--
D|--------4--6---------------------------
A|--4--6---------------------------------
E|---------------------------------------
http://www.guitartabcreator.com
Guitar Tab Creator is intended to store guitar tab created through the tool. It currently does not support in-line text editing. Any text you place in here will be lost. If you need to comment on your tab, please use the "Tab Notes" section located below.