How Great Thou Art - B

(/) Slide Up  (\) Slide Down  (h) Hammer On  (p) Pull Off  (b) Bend (r) Release (v) Vibrato


E|---------------------------------------------------------
B|--12------------------------------12---------------------
G|--14b16v--16--16--16--13--11--13--13--13--13--13--11--8--
D|---------------------------------------------------------
A|---------------------------------------------------------
E|---------------------------------------------------------



E|------------------
B|------------------
G|-----9--11--8-----
D|--9--9---------9--
A|--9--7---------9--
E|--7------------7--
http://www.guitartabcreator.com
Guitar Tab Creator is intended to store guitar tab created through the tool. It currently does not support in-line text editing. Any text you place in here will be lost. If you need to comment on your tab, please use the "Tab Notes" section located below.