Hot Spot Oct 2011

(/) Slide Up  (\) Slide Down  (h) Hammer On  (p) Pull Off  (b) Bend (r) Release (v) Vibrato
E|---------------------------------------------------------------------------------------
B|--12v--v--v--v--12--13--12----------------------12v--v--v--12--13--12------------------
G|----------------------------12--------------11-------------------------12------11--12--
D|--------------------------------14--12--14---------------------------------14----------
A|---------------------------------------------------------------------------------------
E|---------------------------------------------------------------------------------------



E|--------------------------
B|--------------------------
G|--12--16--12--17--14--12--
D|--------------------------
A|--------------------------
E|--------------------------



E|---------11v---------11------------------
B|-----------------------------14--11------
G|--9--11-------8--11------11----------11--
D|-----------------------------------------
A|-----------------------------------------
E|-----------------------------------------



E|----------------------------------------------------------------------------------------------------------------------19b21--
B|----------------------------------------------------------------------------------------------19------16--19--16--19---------
G|--------------4--4h6--4--8--4-----6------------------16-----------------------16--18--16--20------18-------------------------
D|--------4--6-------------------4-------------16--18--------------------------------------------------------------------------
A|--4--6-------------------------------16--18----------------------------------------------------------------------------------
E|-----------------------------------------------------------------------------------------------------------------------------



E|-------------------------------------------------------------------
B|-------------------------------------------------------------------
G|-------------------------------------------------------------------
D|--5--5--7--5--9--9--9--10--10--5--7----5--10--9--12--12--14--5--7--
A|-------------------------------------------------------------------
E|-------------------------------------------------------------------



E|------------------------------------------------------
B|--17--16--9v--17--16--9v--17--16--9v--17--17--16--17--
G|------------------------------------------------------
D|------------------------------------------------------
A|------------------------------------------------------
E|------------------------------------------------------
http://www.guitartabcreator.com
Guitar Tab Creator is intended to store guitar tab created through the tool. It currently does not support in-line text editing. Any text you place in here will be lost. If you need to comment on your tab, please use the "Tab Notes" section located below.