Where I am

(/) Slide Up  (\) Slide Down  (h) Hammer On  (p) Pull Off  (b) Bend (r) Release (v) Vibrato
E|----------------------------------------------
B|----------------------------------------------
G|----------------------------------------------
D|----------------------------------------------
A|--5h7--7h8--7--5--7h5------5h7--7h8--7--3--5--
E|----------------------------------------------



E|------------------------------------------------------------------
B|------------------------------------------------------------------
G|------------------------------------------------------------------
D|-----------------7---------8-----8-----8-----8-----5-----5-----5--
A|--5--5--5--5--5---------5-----5-----5-----5-----3-----3-----3-----
E|------------------------------------------------------------------



E|--------------------------------------------------------------------------
B|--------------------------------------------------------------------------
G|--------------------------------------------------------------------------
D|-----7-----8-----5-----5-----3-----5-----7-----8-----5-----5-----3--3--2--
A|--5-----5-----5-----3-----1-----3-----5-----5-----5-----3-----1-----------
E|--------------------------------------------------------------------------



E|------------------------------------------------------------
B|------------------------------------------------------------
G|------------------------------------------------------------
D|------------------------------------------------------------
A|--5--7--8--5--10--8--5--7--8--12--10--8--10--8--7--8--7--5--
E|------------------------------------------------------------



E|----------------------------------------------------------------------------------
B|----------------------------------------------------------------------------------
G|----------------------------------------------------------------------------------
D|----------------------------------------------------------------------------------
A|--12--13--12--13--12--13--12--13--15--13--12--13--17--15--13--12--8--10--7--8--5--
E|----------------------------------------------------------------------------------



E|--------------------------------------------------------------------------------------------------
B|--------------------------------------------------------------------------------------------------
G|--------------------------------------------------------------------------------------------------
D|--0--0--14--0--0--15--12--0--0--10--8--0--0--0--14--0--15--0--12--0--0--10--8-----10-----9-----7--
A|-------------------------------------------------------------------------------8------7-----5-----
E|--------------------------------------------------------------------------------------------------



E|--
B|--
G|--
D|--
A|--
E|--



E|--------------
B|--------------
G|--------------
D|--8--8--7--7--
A|--------------
E|--------------



E|----------------------------------------------
B|----------------------------------------------
G|----------------------------------------------
D|----------5--7-----------------------5--7-----
A|--5--5h7--------5--5--7--8--5--5--7--------5--
E|----------------------------------------------



E|-----------------------------------------
B|-----------------------------------------
G|-----------------------------------------
D|--------------------3--2-----5--3--2-----
A|--5--7--8--7--5--1--------3-----------5--
E|-----------------------------------------
http://www.guitartabcreator.com
Guitar Tab Creator is intended to store guitar tab created through the tool. It currently does not support in-line text editing. Any text you place in here will be lost. If you need to comment on your tab, please use the "Tab Notes" section located below.