Where have you Gone

(/) Slide Up  (\) Slide Down  (h) Hammer On  (p) Pull Off  (b) Bend (r) Release (v) Vibrato


E|----------------------------------------------------------------------
B|----------------------------------------------------------------------
G|----------------------------------------------------------------------
D|-----3-----2---------------------7--8----------5--6-------------------
A|--1-----3---------------------5--------5----3--------3-------8-----7--
E|----------------------------------------------------------6-----8-----



E|-----------------------
B|-----------------------
G|-----------------------
D|-----------------------
A|--5--7--8-----8-----7--
E|-----------6-----8-----
http://www.guitartabcreator.com
Guitar Tab Creator is intended to store guitar tab created through the tool. It currently does not support in-line text editing. Any text you place in here will be lost. If you need to comment on your tab, please use the "Tab Notes" section located below.