Smooth Backing Track Tab

(/) Slide Up  (\) Slide Down  (h) Hammer On  (p) Pull Off  (b) Bend (r) Release (v) Vibrato


E|----------------------------------------------------------------------------------------------
B|----------------------------------------------------------------------------------------------
G|-------------------------------------------------------------------14--15--14--15--14--12-----
D|--------------7--8--7/8--7----------7------------------5\3----/12-----------------------------
A|--------3--5----------------5----5-----8--7--8--10--5-----------------------------------------
E|--5--3----------------------------------------------------------------------------------------



E|-------------------------------------------------------------------------------------------------
B|---------------------------------------------------------------------------8--6------------------
G|------14---------------------------------------------4--5--7-----10--9--7--------7v--7/10--9--7--
D|--12------15--14--17--12------/15--15--15--12--5--7-----------7----------------------------------
A|-------------------------------------------------------------------------------------------------
E|-------------------------------------------------------------------------------------------------



E|---------------------------------
B|---------------------------------
G|---------------3--2--------------
D|--7------------------3--2--------
A|-----10--7--5--------------3--2--
E|---------------------------------
http://www.guitartabcreator.com
Guitar Tab Creator is intended to store guitar tab created through the tool. It currently does not support in-line text editing. Any text you place in here will be lost. If you need to comment on your tab, please use the "Tab Notes" section located below.