Shadow Solo 1st solo (melodic solo tab)

(/) Slide Up  (\) Slide Down  (h) Hammer On  (p) Pull Off  (b) Bend (r) Release (v) Vibrato


E|--------------------------------------------------------------------------------------------------
B|-----------------------------------------------------------12--13--13b13--12------12--13----------
G|--------5--7--4--4h5-----4--5--9--7------------14--12--14---------------------14----------12--14--
D|--5--7----------------7--------------9--7--12-----------------------------------------------------
A|--------------------------------------------------------------------------------------------------
E|--------------------------------------------------------------------------------------------------



E|---------------------------------------------------------------------------------------------------
B|-----------------------------------------------------10--8---------8-----6-----------10-----12-----
G|--10--9------------9--10--5--2------10--9---------9---------9--10-----9-----7--9--9------9------9--
D|---------10--9--7--------------------------10--7---------------------------------------------------
A|---------------------------------------------------------------------------------------------------
E|---------------------------------------------------------------------------------------------------



E|-------------------------------------------------------
B|--13-------13--12--10-----------10--12--13--12h13--15--
G|------9----------------12b12---------------------------
D|-------------------------------------------------------
A|-------------------------------------------------------
E|-------------------------------------------------------
http://www.guitartabcreator.com
Guitar Tab Creator is intended to store guitar tab created through the tool. It currently does not support in-line text editing. Any text you place in here will be lost. If you need to comment on your tab, please use the "Tab Notes" section located below.