MeadowVeil - Intro- Rock (rage against the machine inspiration) gold must use for ep or demo

(/) Slide Up  (\) Slide Down  (h) Hammer On  (p) Pull Off  (b) Bend (r) Release (v) Vibrato


E|-------------------------------------------------------------------------------------------------
B|-------------------------------------------------------------------------------------------------
G|--7--7--7--7--7b7--7--------------7--7--------------7--------7--------------7--------7-----------
D|----------------------6--------6--------6--------6--------------6--------6--------------6--------
A|-------------------------5--5--------------5--5--------------------5--5--------------------5-----
E|-------------------------------------------------------0--0--------------------0--0--------------



E|-----------
B|-----------
G|--------7--
D|-----6-----
A|--5--------
E|-----------



E|--------------------------------------------------
B|-----------6--------8--------------6--------------
G|--------7-----7--7-----7--------7-----7-----------
D|--------------------------------------------------
A|-----0-----------------------0-----------7--8--5--
E|--0-----------------------0-----------------------



E|--------------------------------------------------------
B|-----------6--------8--------------6--------------------
G|--------7-----7--7-----7--------7-----------------------
D|-----------------------------------------7-----5-----4--
A|-----0-----------------------0--------5-----3-----2-----
E|--0-----------------------0-----------------------------
http://www.guitartabcreator.com
Guitar Tab Creator is intended to store guitar tab created through the tool. It currently does not support in-line text editing. Any text you place in here will be lost. If you need to comment on your tab, please use the "Tab Notes" section located below.