Meadowveil Intro (GOLDEN!!!!!)- Have it on recording- C Tuning- Acoustic (Clean Mod)

(/) Slide Up  (\) Slide Down  (h) Hammer On  (p) Pull Off  (b) Bend (r) Release (v) Vibrato


E|--------7--------7-----5-----------5-----7--------7--------10-----------7--5-----3-----2-----3-----
B|-----8--------8-----------8-----8-----------5--------5---------8-----5--------5-----3-----3-----3--
G|---------------------------------------------------------------------------------------------------
D|---------------------------------------------------------------------------------------------------
A|---------------------------------------------------------------------------------------------------
E|--0--------0--------0--------0--------0--------0--------0---------0--------------------------------

Keyboards, begin, get right into it!!!:

E|-----3-----------2---------------0--------------------------
B|-----3-----------3-----------3--------------3----------------
G|-----0-----------0--------0--------------2------2------------
D|--------------------------------------0---------------------
A|------------------------3-----------------------------------
E|--0-----------0----------------------------------------------
http://www.guitartabcreator.com
Guitar Tab Creator is intended to store guitar tab created through the tool. It currently does not support in-line text editing. Any text you place in here will be lost. If you need to comment on your tab, please use the "Tab Notes" section located below.