Helens Gate Solo/ Lead Parts

(/) Slide Up  (\) Slide Down  (h) Hammer On  (p) Pull Off  (b) Bend (r) Release (v) Vibrato

E|------------------------------------------------------------
B|--7--8--5--5h7----8--7--5--7--5--3--5--3--2--3--5--3--2-----
G|---------------------------------------------------------4--
D|------------------------------------------------------------
A|------------------------------------------------------------
E|------------------------------------------------------------



E|-------------------------------------------------------------------------------------------------
B|--------------------------------2--3--5--3--2--0----------------------------------------3--2-----
G|--------------------------2--4----------------------------------------4--4--4--2--2--2-----------
D|--2h4--4----2h4--4--2--4------------------------------2h4--4--2h4--4-----------------------------
A|-------------------------------------------------------------------------------------------------
E|-------------------------------------------------------------------------------------------------



E|---------2--------2------------2--------
B|--3\5----------------3--3---------3-----
G|------------4--4---------------------4--
D|----------------------------------------
A|----------------------------------------
E|----------------------------------------



E|-----------------------------
B|--------------8--7--8--------
G|--9--9--9--9-----------------
D|-----------------------7--9--
A|-----------------------------
E|-----------------------------
http://www.guitartabcreator.com
Guitar Tab Creator is intended to store guitar tab created through the tool. It currently does not support in-line text editing. Any text you place in here will be lost. If you need to comment on your tab, please use the "Tab Notes" section located below.