HELENS GATE SOLO

(/) Slide Up  (\) Slide Down  (h) Hammer On  (p) Pull Off  (b) Bend (r) Release (v) Vibrato

E|---------------------------------------------------------------------------------------
B|---------------------------------------------------------------------------------------
G|------------------------------------------------------------------------2-----2--4--2--
D|---------------------------------2--4--5--4--5--7--4--5--4--2--2--4--5-----4-----------
A|--2/7--7--7--12--12--2--2--4--5--------------------------------------------------------
E|---------------------------------------------------------------------------------------



E|---------------------------------------------------- (travel back down the neck to the trilling
B|-------------------------------10-----10-----10-----on hte bottom e string the back up to the 14th
G|--2--7--2--6--6--7--9--7--9b9------9------9------9--
D|----------------------------------------------------
A|----------------------------------------------------
E|----------------------------------------------------
http://www.guitartabcreator.com
Guitar Tab Creator is intended to store guitar tab created through the tool. It currently does not support in-line text editing. Any text you place in here will be lost. If you need to comment on your tab, please use the "Tab Notes" section located below.