Helens Gate Intro Tab (Copyright of Sam Heidke) - 27/07/13

(/) Slide Up  (\) Slide Down  (h) Hammer On  (p) Pull Off  (b) Bend (r) Release (v) Vibrato


E|--------------------------------------------------------------------------------------------
B|--------3--------3--------3--------3--------2--------2--------2--------2--------0-----------
G|-----4-----4--------4--------4--------4--------4--------4--------4--------4--------4--------
D|--4-----------4--------4--------4--------4--------4--------4--------4--------4--------4-----
A|--------------------------------------------------------------------------------------------
E|--------------------------------------------------------------------------------------------



E|-----------------------------2--------2--------3--------0--------2--------2--------3-----------
B|--0--------0--------0-----------0--------0--------0--------0--------0--------0--------0--------
G|-----4--------4--------4-----------4--------4--------4--------4--------4--------4--------4-----
D|--------4--------4--------4--------------------------------------------------------------------
A|-----------------------------------------------------------------------------------------------
E|-----------------------------------------------------------------------------------------------



E|--0-----------------------------------------------------------------------------------------
B|-----0-----3--------2--------2--------2--------------------------------------------2--------
G|--------4-----4--------4--------4--------4-----------------4--------4-----------4-----4-----
D|-----------------4--------4--------4--------------------4-----4--------4-----4-----------4--
A|-----------------------------------------------------2-----------2--------0-----------------
E|--------------------------------------------0--2--3-----------------------------------------



E|----------------------------------------------------------------------------
B|--2h3--0-----------------------------2--------------------------------2-----
G|-------------------4--------------4-----4--------------------4-----------4--
D|----------------4-----4--------4-----------4--------------4--------4--------
A|-------------2-----------2--0--------------------------2--------0-----------
E|----------3-----------------------------------0--2--3-----------------------
http://www.guitartabcreator.com
Guitar Tab Creator is intended to store guitar tab created through the tool. It currently does not support in-line text editing. Any text you place in here will be lost. If you need to comment on your tab, please use the "Tab Notes" section located below.