Dead End Solo

(/) Slide Up  (\) Slide Down  (h) Hammer On  (p) Pull Off  (b) Bend (r) Release (v) Vibrato


E|--3--5--------------------------------------------------------------------------12-------------
B|--------3\5-----------------------6--6--5--5--8--8--6--6--10--10--8--8--12--12-----------------
G|-------------7--5--7--7--7--5------------------------------------------------------------------
D|-------------------------------7---------------------------------------------------------------
A|-----------------------------------------------------------------------------------------------
E|-----------------------------------------------------------------------------------------------



E|--15--13--15--13--12--13--12--10--------------
B|----------------------------------13--12--10--
G|----------------------------------------------
D|----------------------------------------------
A|----------------------------------------------
E|----------------------------------------------
http://www.guitartabcreator.com
Guitar Tab Creator is intended to store guitar tab created through the tool. It currently does not support in-line text editing. Any text you place in here will be lost. If you need to comment on your tab, please use the "Tab Notes" section located below.