Charms of Risk Verse Lead Break

(/) Slide Up  (\) Slide Down  (h) Hammer On  (p) Pull Off  (b) Bend (r) Release (v) Vibrato
E|----------------------
B|----------------------
G|----------------------
D|--2/7----9--10--9--7--
A|----------------------
E|----------------------



E|-------------------------------------------------------------------------------------
B|-----------------------------------------12--13--15--13--15b15----13--12--10---------
G|------------------------12--14--14b14-----------------------------------------12/14--
D|--7--9--10--14--12--14---------------------------------------------------------------
A|-------------------------------------------------------------------------------------
E|-------------------------------------------------------------------------------------



E|-----------------------------------
B|-----------------------------------
G|--12\7--5--4--1--4----4h5h4--------
D|-----------------------------5--7--
A|-----------------------------------
E|-----------------------------------



E|-----------------------------------------------------------
B|-----------------------------------------------------------
G|------------------------------------9--10--9---------------
D|-----------------5--7----9--10--12------------7--9--10--7--
A|--------3--5--7--------------------------------------------
E|--3--5-----------------------------------------------------
http://www.guitartabcreator.com
Guitar Tab Creator is intended to store guitar tab created through the tool. It currently does not support in-line text editing. Any text you place in here will be lost. If you need to comment on your tab, please use the "Tab Notes" section located below.