The Black Door Tabs/Copyrights

(/) Slide Up  (\) Slide Down  (h) Hammer On  (p) Pull Off  (b) Bend (r) Release (v) Vibrato


E|---------------------------------------------------------------------
B|---------------------------------------------------------------------
G|---------------------------------------------------------------------
D|---------------5\9--7--5--4--4h5h4-----4--5-----4--5--4--2-----------
A|--7--9--10--7-----------------------7--------5--------------4--5--7--
E|---------------------------------------------------------------------



E|----------------------------------------------------------------12h15h12------12-----------------
B|--7h8--7-----7h8h7-----0--7--8--0--8--10--0--10--12--0--12--13------------15------15--12---------
G|----------9-------------------------------------------------------------------------------14-----
D|--------------------9----------------------------------------------------------------------------
A|-------------------------------------------------------------------------------------------------
E|-------------------------------------------------------------------------------------------------



E|--------------------------
B|--------------------------
G|--------------------------
D|--14----------------------
A|------------12--9--10--7--
E|--------------------------
http://www.guitartabcreator.com
Guitar Tab Creator is intended to store guitar tab created through the tool. It currently does not support in-line text editing. Any text you place in here will be lost. If you need to comment on your tab, please use the "Tab Notes" section located below.