Like a Fire

(/) Slide Up  (\) Slide Down  (h) Hammer On  (p) Pull Off  (b) Bend (r) Release (v) Vibrato


E|-12-13-12-------
B|----------13----
G|-------------14-
D|----------------
A|----------------
E|----------------



E|-12-13-12-------------
B|----------13----------
G|-------------14-12-12-
D|----------------------
A|----------------------
E|----------------------



E|-12-13-12-------------------------12-13/15\
B|----------13-------------------13----------
G|-------------14-12----------14-------------
D|-------------------15-14-15----------------
A|-------------------------------------------
E|-------------------------------------------
http://www.guitartabcreator.com
Guitar Tab Creator is intended to store guitar tab created through the tool. It currently does not support in-line text editing. Any text you place in here will be lost. If you need to comment on your tab, please use the "Tab Notes" section located below.